ISO-10303-21;
HEADER;
FILE_DESCRIPTION (( 'STEP AP214' ),
    '1' );
FILE_NAME ('1147028.STP',
    '2017-04-07T06:58:01',
    ( '' ),
    ( '' ),
    'SwSTEP 2.0',
    'SolidWorks 2016',
    '' );
FILE_SCHEMA (( 'AUTOMOTIVE_DESIGN' ));
ENDSEC;

DATA;
#1 = DIRECTION ( 'NONE',  ( 0.9335804264972041900, -0.3583679495452942700, 0.0000000000000000000 ) ) ;
#2 = CARTESIAN_POINT ( 'NONE',  ( -13.75000000000000200, -6.500000000000005300, 4.000000000000000000 ) ) ;
#3 = LINE ( 'NONE', #252, #138 ) ;
#4 = DIRECTION ( 'NONE',  ( -1.000000000000000000, -3.853268303513885500E-016, -0.0000000000000000000 ) ) ;
#5 = ORIENTED_EDGE ( 'NONE', *, *, #122, .F. ) ;
#6 = CARTESIAN_POINT ( 'NONE',  ( -2.499999999999999600, 3.061616997868382600E-016, 4.000000000000000000 ) ) ;
#7 = CARTESIAN_POINT ( 'NONE',  ( -8.759767544539693400, 6.499999999999994700, 4.000000000000000000 ) ) ;
#8 = DIRECTION ( 'NONE',  ( -0.3583679495452942200, -0.9335804264972040700, -0.0000000000000000000 ) ) ;
#9 = PRODUCT_DEFINITION_CONTEXT ( 'detailed design', #180, 'design' ) ;
#10 = EDGE_LOOP ( 'NONE', ( #176, #178, #132, #268 ) ) ;
#11 = FILL_AREA_STYLE ('',( #204 ) ) ;
#12 = PLANE ( 'NONE',  #66 ) ;
#13 =( LENGTH_UNIT ( ) NAMED_UNIT ( * ) SI_UNIT ( .MILLI., .METRE. ) );
#14 = CARTESIAN_POINT ( 'NONE',  ( 0.0000000000000000000, 0.0000000000000000000, 0.0000000000000000000 ) ) ;
#15 = SURFACE_STYLE_FILL_AREA ( #199 ) ;
#16 = PRODUCT_RELATED_PRODUCT_CATEGORY ( 'part', '', ( #195 ) ) ;
#17 = DIRECTION ( 'NONE',  ( -0.0000000000000000000, -0.0000000000000000000, -1.000000000000000000 ) ) ;
#18 = CARTESIAN_POINT ( 'NONE',  ( 0.0000000000000000000, 0.0000000000000000000, 0.0000000000000000000 ) ) ;
#19 = DIRECTION ( 'NONE',  ( 0.0000000000000000000, 0.0000000000000000000, 1.000000000000000000 ) ) ;
#20 = DIRECTION ( 'NONE',  ( 1.000000000000000000, 0.0000000000000000000, 0.0000000000000000000 ) ) ;
#21 = MANIFOLD_SOLID_BREP ( ' Gewindebohrung1', #194 ) ;
#22 = ORIENTED_EDGE ( 'NONE', *, *, #148, .F. ) ;
#23 = PRODUCT_CONTEXT ( 'NONE', #146, 'mechanical' ) ;
#24 = EDGE_LOOP ( 'NONE', ( #144, #80, #117, #179 ) ) ;
#25 = ORIENTED_EDGE ( 'NONE', *, *, #239, .T. ) ;
#26 = CARTESIAN_POINT ( 'NONE',  ( 8.759767544539689900, -6.500000000000000000, 4.000000000000000000 ) ) ;
#27 = AXIS2_PLACEMENT_3D ( 'NONE', #29, #1, #129 ) ;
#28 = DIRECTION ( 'NONE',  ( -0.0000000000000000000, -0.0000000000000000000, -1.000000000000000000 ) ) ;
#29 = CARTESIAN_POINT ( 'NONE',  ( -13.75000000000000200, -6.500000000000005300, 4.000000000000000000 ) ) ;
#30 = ORIENTED_EDGE ( 'NONE', *, *, #155, .F. ) ;
#31 = PRODUCT_DEFINITION_FORMATION_WITH_SPECIFIED_SOURCE ( 'ANY', '', #195, .NOT_KNOWN. ) ;
#32 = EDGE_CURVE ( 'NONE', #205, #200, #72, .T. ) ;
#33 = CIRCLE ( 'NONE', #192, 2.499999999999999100 ) ;
#34 = ORIENTED_EDGE ( 'NONE', *, *, #73, .T. ) ;
#35 = PRODUCT_DEFINITION ( 'UNKNOWN', '', #31, #9 ) ;
#36 = CARTESIAN_POINT ( 'NONE',  ( -8.759767544539693400, 6.499999999999994700, 4.000000000000000000 ) ) ;
#37 = CARTESIAN_POINT ( 'NONE',  ( -8.759767544539693400, 6.499999999999994700, 0.0000000000000000000 ) ) ;
#38 = ORIENTED_EDGE ( 'NONE', *, *, #186, .T. ) ;
#39 = VECTOR ( 'NONE', #249, 1000.000000000000000 ) ;
#40 = CARTESIAN_POINT ( 'NONE',  ( -13.75000000000000200, -6.500000000000005300, 4.000000000000000000 ) ) ;
#41 = AXIS2_PLACEMENT_3D ( 'NONE', #95, #114, #113 ) ;
#42 = VERTEX_POINT ( 'NONE', #276 ) ;
#43 = ORIENTED_EDGE ( 'NONE', *, *, #184, .T. ) ;
#44 = DIRECTION ( 'NONE',  ( 1.000000000000000000, 2.311960982108331000E-016, 0.0000000000000000000 ) ) ;
#45 = AXIS2_PLACEMENT_3D ( 'NONE', #47, #49, #52 ) ;
#46 = VERTEX_POINT ( 'NONE', #219 ) ;
#47 = CARTESIAN_POINT ( 'NONE',  ( 0.0000000000000000000, 0.0000000000000000000, 0.0000000000000000000 ) ) ;
#48 = ORIENTED_EDGE ( 'NONE', *, *, #184, .F. ) ;
#49 = DIRECTION ( 'NONE',  ( -0.0000000000000000000, -0.0000000000000000000, 1.000000000000000000 ) ) ;
#50 = EDGE_LOOP ( 'NONE', ( #22, #79 ) ) ;
#51 = DIRECTION ( 'NONE',  ( -2.311960982108331000E-016, 1.000000000000000000, 0.0000000000000000000 ) ) ;
#52 = DIRECTION ( 'NONE',  ( 1.000000000000000000, 0.0000000000000000000, 0.0000000000000000000 ) ) ;
#53 = EDGE_CURVE ( 'NONE', #142, #229, #131, .T. ) ;
#54 = VERTEX_POINT ( 'NONE', #26 ) ;
#55 = DIRECTION ( 'NONE',  ( 1.000000000000000000, 0.0000000000000000000, 0.0000000000000000000 ) ) ;
#56 = PRESENTATION_STYLE_ASSIGNMENT (( #240 ) ) ;
#57 = CARTESIAN_POINT ( 'NONE',  ( 0.0000000000000000000, 0.0000000000000000000, 4.000000000000000000 ) ) ;
#58 = DIRECTION ( 'NONE',  ( 1.000000000000000000, 0.0000000000000000000, -0.0000000000000000000 ) ) ;
#59 = ORIENTED_EDGE ( 'NONE', *, *, #186, .F. ) ;
#60 = CARTESIAN_POINT ( 'NONE',  ( 0.0000000000000000000, 0.0000000000000000000, 4.000000000000000000 ) ) ;
#61 = AXIS2_PLACEMENT_3D ( 'NONE', #99, #76, #87 ) ;
#62 = PLANE ( 'NONE',  #206 ) ;
#63 = ORIENTED_EDGE ( 'NONE', *, *, #126, .T. ) ;
#64 = SURFACE_STYLE_FILL_AREA ( #11 ) ;
#65 = DIRECTION ( 'NONE',  ( 1.000000000000000000, 0.0000000000000000000, 0.0000000000000000000 ) ) ;
#66 = AXIS2_PLACEMENT_3D ( 'NONE', #82, #67, #69 ) ;
#67 = DIRECTION ( 'NONE',  ( 3.853268303513885500E-016, -1.000000000000000000, 0.0000000000000000000 ) ) ;
#68 =( GEOMETRIC_REPRESENTATION_CONTEXT ( 3 ) GLOBAL_UNCERTAINTY_ASSIGNED_CONTEXT ( ( #244 ) ) GLOBAL_UNIT_ASSIGNED_CONTEXT ( ( #13, #130, #181 ) ) REPRESENTATION_CONTEXT ( 'NONE', 'WORKASPACE' ) );
#69 = DIRECTION ( 'NONE',  ( 1.000000000000000000, 3.853268303513885500E-016, 0.0000000000000000000 ) ) ;
#70 = VECTOR ( 'NONE', #120, 1000.000000000000100 ) ;
#71 = CARTESIAN_POINT ( 'NONE',  ( 0.0000000000000000000, 0.0000000000000000000, 4.000000000000000000 ) ) ;
#72 = LINE ( 'NONE', #233, #193 ) ;
#73 = EDGE_CURVE ( 'NONE', #251, #42, #137, .T. ) ;
#74 =( NAMED_UNIT ( * ) SI_UNIT ( $, .STERADIAN. ) SOLID_ANGLE_UNIT ( ) );
#75 = CIRCLE ( 'NONE', #222, 2.499999999999999600 ) ;
#76 = DIRECTION ( 'NONE',  ( 0.0000000000000000000, 0.0000000000000000000, 1.000000000000000000 ) ) ;
#77 = DIRECTION ( 'NONE',  ( -0.0000000000000000000, -0.0000000000000000000, 1.000000000000000000 ) ) ;
#78 = DIRECTION ( 'NONE',  ( -0.0000000000000000000, -0.0000000000000000000, 1.000000000000000000 ) ) ;
#79 = ORIENTED_EDGE ( 'NONE', *, *, #73, .F. ) ;
#80 = ORIENTED_EDGE ( 'NONE', *, *, #122, .T. ) ;
#81 = STYLED_ITEM ( 'NONE', ( #203 ), #228 ) ;
#82 = CARTESIAN_POINT ( 'NONE',  ( -8.759767544539693400, 6.499999999999994700, 4.000000000000000000 ) ) ;
#83 = DIRECTION ( 'NONE',  ( -0.3583679495452942200, -0.9335804264972040700, -0.0000000000000000000 ) ) ;
#84 = VECTOR ( 'NONE', #141, 1000.000000000000000 ) ;
#85 = EDGE_CURVE ( 'NONE', #142, #54, #154, .T. ) ;
#86 = ORIENTED_EDGE ( 'NONE', *, *, #85, .F. ) ;
#87 = DIRECTION ( 'NONE',  ( 1.000000000000000000, 0.0000000000000000000, -0.0000000000000000000 ) ) ;
#88 = PLANE ( 'NONE',  #27 ) ;
#89 = PRODUCT_DEFINITION_SHAPE ( 'NONE', 'NONE',  #35 ) ;
#90 = DIRECTION ( 'NONE',  ( -0.0000000000000000000, -0.0000000000000000000, 1.000000000000000000 ) ) ;
#91 = FACE_OUTER_BOUND ( 'NONE', #10, .T. ) ;
#92 = VERTEX_POINT ( 'NONE', #160 ) ;
#93 = ORIENTED_EDGE ( 'NONE', *, *, #190, .T. ) ;
#94 = PLANE ( 'NONE',  #61 ) ;
#95 = CARTESIAN_POINT ( 'NONE',  ( 8.759767544539689900, -6.500000000000000000, 4.000000000000000000 ) ) ;
#96 = AXIS2_PLACEMENT_3D ( 'NONE', #57, #247, #55 ) ;
#97 = DIRECTION ( 'NONE',  ( -1.000000000000000000, -2.311960982108331000E-016, 0.0000000000000000000 ) ) ;
#98 = CARTESIAN_POINT ( 'NONE',  ( 13.75000000000000000, 6.500000000000003600, 0.0000000000000000000 ) ) ;
#99 = CARTESIAN_POINT ( 'NONE',  ( 0.0000000000000000000, 0.0000000000000000000, 0.0000000000000000000 ) ) ;
#100 = PLANE ( 'NONE',  #41 ) ;
#101 = CARTESIAN_POINT ( 'NONE',  ( 2.499999999999999600, 0.0000000000000000000, 4.000000000000000000 ) ) ;
#102 = PRESENTATION_LAYER_ASSIGNMENT (  '', '', ( #81 ) ) ;
#103 = FILL_AREA_STYLE_COLOUR ( '', #202 ) ;
#104 = EDGE_LOOP ( 'NONE', ( #30, #253, #34, #189 ) ) ;
#105 = AXIS2_PLACEMENT_3D ( 'NONE', #40, #51, #97 ) ;
#106 =( LENGTH_UNIT ( ) NAMED_UNIT ( * ) SI_UNIT ( .MILLI., .METRE. ) );
#107 = ORIENTED_EDGE ( 'NONE', *, *, #148, .T. ) ;
#108 = EDGE_LOOP ( 'NONE', ( #147, #128, #172, #48 ) ) ;
#109 = CARTESIAN_POINT ( 'NONE',  ( -13.75000000000000200, -6.500000000000005300, 0.0000000000000000000 ) ) ;
#110 = DIRECTION ( 'NONE',  ( -0.0000000000000000000, -0.0000000000000000000, 1.000000000000000000 ) ) ;
#111 = EDGE_CURVE ( 'NONE', #229, #127, #3, .T. ) ;
#112 = VECTOR ( 'NONE', #182, 1000.000000000000000 ) ;
#113 = DIRECTION ( 'NONE',  ( -0.3583679495452943300, -0.9335804264972041900, 0.0000000000000000000 ) ) ;
#114 = DIRECTION ( 'NONE',  ( -0.9335804264972041900, 0.3583679495452943300, 0.0000000000000000000 ) ) ;
#115 = EDGE_CURVE ( 'NONE', #205, #274, #125, .T. ) ;
#116 = CARTESIAN_POINT ( 'NONE',  ( 2.499999999999999100, 0.0000000000000000000, 0.0000000000000000000 ) ) ;
#117 = ORIENTED_EDGE ( 'NONE', *, *, #32, .T. ) ;
#118 = VECTOR ( 'NONE', #83, 1000.000000000000100 ) ;
#119 = SURFACE_STYLE_USAGE ( .BOTH. , #169 ) ;
#120 = DIRECTION ( 'NONE',  ( 0.3583679495452942700, 0.9335804264972040700, 0.0000000000000000000 ) ) ;
#121 = SHAPE_DEFINITION_REPRESENTATION ( #89, #228 ) ;
#122 = EDGE_CURVE ( 'NONE', #54, #205, #218, .T. ) ;
#123 =( LENGTH_UNIT ( ) NAMED_UNIT ( * ) SI_UNIT ( .MILLI., .METRE. ) );
#124 = ORIENTED_EDGE ( 'NONE', *, *, #111, .T. ) ;
#125 = LINE ( 'NONE', #258, #112 ) ;
#126 = EDGE_CURVE ( 'NONE', #54, #127, #235, .T. ) ;
#127 = VERTEX_POINT ( 'NONE', #250 ) ;
#128 = ORIENTED_EDGE ( 'NONE', *, *, #231, .F. ) ;
#129 = DIRECTION ( 'NONE',  ( 0.3583679495452942700, 0.9335804264972041900, 0.0000000000000000000 ) ) ;
#130 =( NAMED_UNIT ( * ) PLANE_ANGLE_UNIT ( ) SI_UNIT ( $, .RADIAN. ) );
#131 = LINE ( 'NONE', #272, #145 ) ;
#132 = ORIENTED_EDGE ( 'NONE', *, *, #248, .F. ) ;
#133 = EDGE_LOOP ( 'NONE', ( #93, #264, #225, #150 ) ) ;
#134 =( NAMED_UNIT ( * ) PLANE_ANGLE_UNIT ( ) SI_UNIT ( $, .RADIAN. ) );
#135 = CARTESIAN_POINT ( 'NONE',  ( -13.75000000000000200, -6.500000000000005300, 0.0000000000000000000 ) ) ;
#136 = AXIS2_PLACEMENT_3D ( 'NONE', #60, #90, #65 ) ;
#137 = CIRCLE ( 'NONE', #260, 2.499999999999999600 ) ;
#138 = VECTOR ( 'NONE', #44, 1000.000000000000000 ) ;
#139 = MECHANICAL_DESIGN_GEOMETRIC_PRESENTATION_REPRESENTATION (  '', ( #81 ), #171 ) ;
#140 = UNCERTAINTY_MEASURE_WITH_UNIT (LENGTH_MEASURE( 1.000000000000000100E-005 ), #123, 'distance_accuracy_value', 'NONE');
#141 = DIRECTION ( 'NONE',  ( -0.0000000000000000000, -0.0000000000000000000, 1.000000000000000000 ) ) ;
#142 = VERTEX_POINT ( 'NONE', #263 ) ;
#143 = EDGE_LOOP ( 'NONE', ( #208, #59, #25, #107 ) ) ;
#144 = ORIENTED_EDGE ( 'NONE', *, *, #85, .T. ) ;
#145 = VECTOR ( 'NONE', #28, 1000.000000000000000 ) ;
#146 = APPLICATION_CONTEXT ( 'automotive_design' ) ;
#147 = ORIENTED_EDGE ( 'NONE', *, *, #111, .F. ) ;
#148 = EDGE_CURVE ( 'NONE', #42, #251, #75, .T. ) ;
#149 = ORIENTED_EDGE ( 'NONE', *, *, #53, .T. ) ;
#150 = ORIENTED_EDGE ( 'NONE', *, *, #115, .T. ) ;
#151 = EDGE_LOOP ( 'NONE', ( #43, #273, #5, #63 ) ) ;
#152 = ORIENTED_EDGE ( 'NONE', *, *, #155, .T. ) ;
#153 = FACE_BOUND ( 'NONE', #230, .T. ) ;
#154 = LINE ( 'NONE', #220, #39 ) ;
#155 = EDGE_CURVE ( 'NONE', #46, #246, #33, .T. ) ;
#156 = VECTOR ( 'NONE', #256, 1000.000000000000000 ) ;
#157 = CARTESIAN_POINT ( 'NONE',  ( 8.759767544539689900, -6.500000000000000000, 4.000000000000000000 ) ) ;
#158 = CYLINDRICAL_SURFACE ( 'NONE', #96, 2.499999999999999600 ) ;
#159 = CIRCLE ( 'NONE', #45, 2.499999999999999100 ) ;
#160 = CARTESIAN_POINT ( 'NONE',  ( -8.759767544539693400, 6.499999999999994700, 0.0000000000000000000 ) ) ;
#161 = LINE ( 'NONE', #37, #177 ) ;
#162 = AXIS2_PLACEMENT_3D ( 'NONE', #14, #19, #20 ) ;
#163 = LINE ( 'NONE', #271, #170 ) ;
#164 = DIRECTION ( 'NONE',  ( 1.000000000000000000, 0.0000000000000000000, 0.0000000000000000000 ) ) ;
#165 = DIRECTION ( 'NONE',  ( -0.0000000000000000000, -0.0000000000000000000, 1.000000000000000000 ) ) ;
#166 = FACE_OUTER_BOUND ( 'NONE', #133, .T. ) ;
#167 = CARTESIAN_POINT ( 'NONE',  ( 0.0000000000000000000, 0.0000000000000000000, 4.000000000000000000 ) ) ;
#168 = MECHANICAL_DESIGN_GEOMETRIC_PRESENTATION_REPRESENTATION (  '', ( #174 ), #196 ) ;
#169 = SURFACE_SIDE_STYLE ('',( #15 ) ) ;
#170 = VECTOR ( 'NONE', #265, 1000.000000000000100 ) ;
#171 =( GEOMETRIC_REPRESENTATION_CONTEXT ( 3 ) GLOBAL_UNCERTAINTY_ASSIGNED_CONTEXT ( ( #140 ) ) GLOBAL_UNIT_ASSIGNED_CONTEXT ( ( #123, #134, #175 ) ) REPRESENTATION_CONTEXT ( 'NONE', 'WORKASPACE' ) );
#172 = ORIENTED_EDGE ( 'NONE', *, *, #190, .F. ) ;
#173 = LINE ( 'NONE', #262, #183 ) ;
#174 = STYLED_ITEM ( 'NONE', ( #56 ), #21 ) ;
#175 =( NAMED_UNIT ( * ) SI_UNIT ( $, .STERADIAN. ) SOLID_ANGLE_UNIT ( ) );
#176 = ORIENTED_EDGE ( 'NONE', *, *, #231, .T. ) ;
#177 = VECTOR ( 'NONE', #254, 1000.000000000000000 ) ;
#178 = ORIENTED_EDGE ( 'NONE', *, *, #53, .F. ) ;
#179 = ORIENTED_EDGE ( 'NONE', *, *, #248, .T. ) ;
#180 = APPLICATION_CONTEXT ( 'automotive_design' ) ;
#181 =( NAMED_UNIT ( * ) SI_UNIT ( $, .STERADIAN. ) SOLID_ANGLE_UNIT ( ) );
#182 = DIRECTION ( 'NONE',  ( -0.0000000000000000000, -0.0000000000000000000, -1.000000000000000000 ) ) ;
#183 = VECTOR ( 'NONE', #77, 1000.000000000000000 ) ;
#184 = EDGE_CURVE ( 'NONE', #127, #274, #163, .T. ) ;
#185 = FACE_BOUND ( 'NONE', #50, .T. ) ;
#186 = EDGE_CURVE ( 'NONE', #246, #46, #159, .T. ) ;
#187 = FACE_OUTER_BOUND ( 'NONE', #104, .T. ) ;
#188 = LINE ( 'NONE', #135, #118 ) ;
#189 = ORIENTED_EDGE ( 'NONE', *, *, #239, .F. ) ;
#190 = EDGE_CURVE ( 'NONE', #274, #92, #161, .T. ) ;
#191 = FACE_OUTER_BOUND ( 'NONE', #143, .T. ) ;
#192 = AXIS2_PLACEMENT_3D ( 'NONE', #18, #110, #245 ) ;
#193 = VECTOR ( 'NONE', #4, 1000.000000000000000 ) ;
#194 = CLOSED_SHELL ( 'NONE', ( #213, #214, #216, #210, #217, #211, #215, #212 ) ) ;
#195 = PRODUCT ( '1147028', '1147028', '', ( #23 ) ) ;
#196 =( GEOMETRIC_REPRESENTATION_CONTEXT ( 3 ) GLOBAL_UNCERTAINTY_ASSIGNED_CONTEXT ( ( #269 ) ) GLOBAL_UNIT_ASSIGNED_CONTEXT ( ( #106, #224, #74 ) ) REPRESENTATION_CONTEXT ( 'NONE', 'WORKASPACE' ) );
#197 = FACE_OUTER_BOUND ( 'NONE', #24, .T. ) ;
#198 = LINE ( 'NONE', #7, #237 ) ;
#199 = FILL_AREA_STYLE ('',( #103 ) ) ;
#200 = VERTEX_POINT ( 'NONE', #36 ) ;
#201 = EDGE_CURVE ( 'NONE', #46, #251, #173, .T. ) ;
#202 = COLOUR_RGB ( '',0.7529411764705882200, 0.7529411764705882200, 0.7529411764705882200 ) ;
#203 = PRESENTATION_STYLE_ASSIGNMENT (( #119 ) ) ;
#204 = FILL_AREA_STYLE_COLOUR ( '', #207 ) ;
#205 = VERTEX_POINT ( 'NONE', #257 ) ;
#206 = AXIS2_PLACEMENT_3D ( 'NONE', #71, #270, #58 ) ;
#207 = COLOUR_RGB ( '',0.7529411764705882200, 0.7529411764705882200, 0.7529411764705882200 ) ;
#208 = ORIENTED_EDGE ( 'NONE', *, *, #201, .F. ) ;
#209 = PLANE ( 'NONE',  #105 ) ;
#210 = ADVANCED_FACE ( 'NONE', ( #166 ), #12, .F. ) ;
#211 = ADVANCED_FACE ( 'NONE', ( #185, #197 ), #62, .T. ) ;
#212 = ADVANCED_FACE ( 'NONE', ( #191 ), #241, .F. ) ;
#213 = ADVANCED_FACE ( 'NONE', ( #187 ), #158, .F. ) ;
#214 = ADVANCED_FACE ( 'NONE', ( #261 ), #209, .F. ) ;
#215 = ADVANCED_FACE ( 'NONE', ( #153, #259 ), #94, .F. ) ;
#216 = ADVANCED_FACE ( 'NONE', ( #227 ), #100, .F. ) ;
#217 = ADVANCED_FACE ( 'NONE', ( #91 ), #88, .F. ) ;
#218 = LINE ( 'NONE', #157, #70 ) ;
#219 = CARTESIAN_POINT ( 'NONE',  ( -2.499999999999999100, 3.061616997868382200E-016, 0.0000000000000000000 ) ) ;
#220 = CARTESIAN_POINT ( 'NONE',  ( -13.75000000000000200, -6.500000000000005300, 4.000000000000000000 ) ) ;
#221 = VECTOR ( 'NONE', #8, 1000.000000000000100 ) ;
#222 = AXIS2_PLACEMENT_3D ( 'NONE', #226, #78, #266 ) ;
#223 = PRESENTATION_LAYER_ASSIGNMENT (  '', '', ( #174 ) ) ;
#224 =( NAMED_UNIT ( * ) PLANE_ANGLE_UNIT ( ) SI_UNIT ( $, .RADIAN. ) );
#225 = ORIENTED_EDGE ( 'NONE', *, *, #32, .F. ) ;
#226 = CARTESIAN_POINT ( 'NONE',  ( 0.0000000000000000000, 0.0000000000000000000, 4.000000000000000000 ) ) ;
#227 = FACE_OUTER_BOUND ( 'NONE', #151, .T. ) ;
#228 = ADVANCED_BREP_SHAPE_REPRESENTATION ( '1147028', ( #21, #162 ), #68 ) ;
#229 = VERTEX_POINT ( 'NONE', #109 ) ;
#230 = EDGE_LOOP ( 'NONE', ( #38, #152 ) ) ;
#231 = EDGE_CURVE ( 'NONE', #92, #229, #188, .T. ) ;
#232 = LINE ( 'NONE', #2, #221 ) ;
#233 = CARTESIAN_POINT ( 'NONE',  ( -8.759767544539693400, 6.499999999999994700, 4.000000000000000000 ) ) ;
#234 = APPLICATION_PROTOCOL_DEFINITION ( 'draft international standard', 'automotive_design', 1998, #180 ) ;
#235 = LINE ( 'NONE', #243, #156 ) ;
#236 = APPLICATION_PROTOCOL_DEFINITION ( 'draft international standard', 'automotive_design', 1998, #146 ) ;
#237 = VECTOR ( 'NONE', #17, 1000.000000000000000 ) ;
#238 = EDGE_LOOP ( 'NONE', ( #124, #255, #86, #149 ) ) ;
#239 = EDGE_CURVE ( 'NONE', #246, #42, #275, .T. ) ;
#240 = SURFACE_STYLE_USAGE ( .BOTH. , #242 ) ;
#241 = CYLINDRICAL_SURFACE ( 'NONE', #136, 2.499999999999999600 ) ;
#242 = SURFACE_SIDE_STYLE ('',( #64 ) ) ;
#243 = CARTESIAN_POINT ( 'NONE',  ( 8.759767544539689900, -6.500000000000000000, 4.000000000000000000 ) ) ;
#244 = UNCERTAINTY_MEASURE_WITH_UNIT (LENGTH_MEASURE( 1.000000000000000100E-005 ), #13, 'distance_accuracy_value', 'NONE');
#245 = DIRECTION ( 'NONE',  ( 1.000000000000000000, 0.0000000000000000000, 0.0000000000000000000 ) ) ;
#246 = VERTEX_POINT ( 'NONE', #116 ) ;
#247 = DIRECTION ( 'NONE',  ( -0.0000000000000000000, -0.0000000000000000000, 1.000000000000000000 ) ) ;
#248 = EDGE_CURVE ( 'NONE', #200, #142, #232, .T. ) ;
#249 = DIRECTION ( 'NONE',  ( 1.000000000000000000, 2.311960982108331000E-016, 0.0000000000000000000 ) ) ;
#250 = CARTESIAN_POINT ( 'NONE',  ( 8.759767544539689900, -6.500000000000000000, 0.0000000000000000000 ) ) ;
#251 = VERTEX_POINT ( 'NONE', #6 ) ;
#252 = CARTESIAN_POINT ( 'NONE',  ( -13.75000000000000200, -6.500000000000005300, 0.0000000000000000000 ) ) ;
#253 = ORIENTED_EDGE ( 'NONE', *, *, #201, .T. ) ;
#254 = DIRECTION ( 'NONE',  ( -1.000000000000000000, -3.853268303513885500E-016, -0.0000000000000000000 ) ) ;
#255 = ORIENTED_EDGE ( 'NONE', *, *, #126, .F. ) ;
#256 = DIRECTION ( 'NONE',  ( -0.0000000000000000000, -0.0000000000000000000, -1.000000000000000000 ) ) ;
#257 = CARTESIAN_POINT ( 'NONE',  ( 13.75000000000000000, 6.500000000000003600, 4.000000000000000000 ) ) ;
#258 = CARTESIAN_POINT ( 'NONE',  ( 13.75000000000000000, 6.500000000000003600, 4.000000000000000000 ) ) ;
#259 = FACE_OUTER_BOUND ( 'NONE', #108, .T. ) ;
#260 = AXIS2_PLACEMENT_3D ( 'NONE', #167, #165, #164 ) ;
#261 = FACE_OUTER_BOUND ( 'NONE', #238, .T. ) ;
#262 = CARTESIAN_POINT ( 'NONE',  ( -2.499999999999999600, 3.061616997868382600E-016, 4.000000000000000000 ) ) ;
#263 = CARTESIAN_POINT ( 'NONE',  ( -13.75000000000000200, -6.500000000000005300, 4.000000000000000000 ) ) ;
#264 = ORIENTED_EDGE ( 'NONE', *, *, #267, .F. ) ;
#265 = DIRECTION ( 'NONE',  ( 0.3583679495452942700, 0.9335804264972040700, 0.0000000000000000000 ) ) ;
#266 = DIRECTION ( 'NONE',  ( 1.000000000000000000, 0.0000000000000000000, 0.0000000000000000000 ) ) ;
#267 = EDGE_CURVE ( 'NONE', #200, #92, #198, .T. ) ;
#268 = ORIENTED_EDGE ( 'NONE', *, *, #267, .T. ) ;
#269 = UNCERTAINTY_MEASURE_WITH_UNIT (LENGTH_MEASURE( 1.000000000000000100E-005 ), #106, 'distance_accuracy_value', 'NONE');
#270 = DIRECTION ( 'NONE',  ( 0.0000000000000000000, 0.0000000000000000000, 1.000000000000000000 ) ) ;
#271 = CARTESIAN_POINT ( 'NONE',  ( 8.759767544539689900, -6.500000000000000000, 0.0000000000000000000 ) ) ;
#272 = CARTESIAN_POINT ( 'NONE',  ( -13.75000000000000200, -6.500000000000005300, 4.000000000000000000 ) ) ;
#273 = ORIENTED_EDGE ( 'NONE', *, *, #115, .F. ) ;
#274 = VERTEX_POINT ( 'NONE', #98 ) ;
#275 = LINE ( 'NONE', #101, #84 ) ;
#276 = CARTESIAN_POINT ( 'NONE',  ( 2.499999999999999600, 0.0000000000000000000, 4.000000000000000000 ) ) ;
ENDSEC;
END-ISO-10303-21;
