ISO-10303-21;
HEADER;
FILE_DESCRIPTION (( 'STEP AP214' ),
    '1' );
FILE_NAME ('6015360.stp',
    '2017-01-24T09:01:28',
    ( '' ),
    ( '' ),
    'SwSTEP 2.0',
    'SolidWorks 2016',
    '' );
FILE_SCHEMA (( 'AUTOMOTIVE_DESIGN' ));
ENDSEC;

DATA;
#1 = PRODUCT_DEFINITION_CONTEXT ( 'detailed design', #305, 'design' ) ;
#2 = STYLED_ITEM ( 'NONE', ( #224 ), #258 ) ;
#3 = CARTESIAN_POINT ( 'NONE',  ( 3.000000000000000000, 102.0000000000000000, 22.50000000000000000 ) ) ;
#4 = DIRECTION ( 'NONE',  ( -0.0000000000000000000, -0.0000000000000000000, -1.000000000000000000 ) ) ;
#5 = AXIS2_PLACEMENT_3D ( 'NONE', #242, #63, #271 ) ;
#6 = ADVANCED_FACE ( 'NONE', ( #74 ), #162, .F. ) ;
#7 = APPLICATION_PROTOCOL_DEFINITION ( 'draft international standard', 'automotive_design', 1998, #35 ) ;
#8 = ORIENTED_EDGE ( 'NONE', *, *, #388, .T. ) ;
#9 = EDGE_CURVE ( 'NONE', #345, #321, #300, .T. ) ;
#10 = ORIENTED_EDGE ( 'NONE', *, *, #111, .T. ) ;
#11 = ORIENTED_EDGE ( 'NONE', *, *, #298, .F. ) ;
#12 = DIRECTION ( 'NONE',  ( 0.0000000000000000000, 0.0000000000000000000, 1.000000000000000000 ) ) ;
#13 = FACE_OUTER_BOUND ( 'NONE', #145, .T. ) ;
#14 = PLANE ( 'NONE',  #103 ) ;
#15 = CARTESIAN_POINT ( 'NONE',  ( 6.000000000000000000, 102.0000000000000000, -22.50000000000000000 ) ) ;
#16 = DIRECTION ( 'NONE',  ( 0.0000000000000000000, -1.000000000000000000, 0.0000000000000000000 ) ) ;
#17 = PRESENTATION_LAYER_ASSIGNMENT (  '', '', ( #2 ) ) ;
#18 = VECTOR ( 'NONE', #100, 1000.000000000000000 ) ;
#19 = AXIS2_PLACEMENT_3D ( 'NONE', #161, #366, #190 ) ;
#20 = DIRECTION ( 'NONE',  ( -0.0000000000000000000, -0.0000000000000000000, -1.000000000000000000 ) ) ;
#21 = CARTESIAN_POINT ( 'NONE',  ( 6.000000000000000000, 105.0000000000000000, -22.50000000000000000 ) ) ;
#22 = DIRECTION ( 'NONE',  ( 1.000000000000000000, 0.0000000000000000000, 0.0000000000000000000 ) ) ;
#23 = ADVANCED_FACE ( 'NONE', ( #61 ), #39, .T. ) ;
#24 = ORIENTED_EDGE ( 'NONE', *, *, #99, .F. ) ;
#25 = DIRECTION ( 'NONE',  ( -1.000000000000000000, 0.0000000000000000000, 0.0000000000000000000 ) ) ;
#26 = EDGE_CURVE ( 'NONE', #135, #321, #371, .T. ) ;
#27 = ORIENTED_EDGE ( 'NONE', *, *, #235, .T. ) ;
#28 = CLOSED_SHELL ( 'NONE', ( #191, #157, #266, #33, #274, #60, #396, #163, #23, #311, #6, #118, #181, #302 ) ) ;
#29 = ORIENTED_EDGE ( 'NONE', *, *, #95, .F. ) ;
#30 = DIRECTION ( 'NONE',  ( 0.0000000000000000000, 1.000000000000000000, 0.0000000000000000000 ) ) ;
#31 = CARTESIAN_POINT ( 'NONE',  ( 0.0000000000000000000, 102.0000000000000000, 22.50000000000000000 ) ) ;
#32 = EDGE_CURVE ( 'NONE', #375, #37, #391, .T. ) ;
#33 = ADVANCED_FACE ( 'NONE', ( #127 ), #183, .T. ) ;
#34 = CARTESIAN_POINT ( 'NONE',  ( 0.0000000000000000000, 105.0000000000000000, 22.50000000000000000 ) ) ;
#35 = APPLICATION_CONTEXT ( 'automotive_design' ) ;
#36 = VERTEX_POINT ( 'NONE', #356 ) ;
#37 = VERTEX_POINT ( 'NONE', #112 ) ;
#38 = MECHANICAL_DESIGN_GEOMETRIC_PRESENTATION_REPRESENTATION (  '', ( #2 ), #65 ) ;
#39 = PLANE ( 'NONE',  #334 ) ;
#40 = VECTOR ( 'NONE', #20, 1000.000000000000000 ) ;
#41 = ORIENTED_EDGE ( 'NONE', *, *, #275, .F. ) ;
#42 = ORIENTED_EDGE ( 'NONE', *, *, #179, .F. ) ;
#43 = CARTESIAN_POINT ( 'NONE',  ( 6.000000000000000000, 102.0000000000000000, 22.50000000000000000 ) ) ;
#44 = SURFACE_STYLE_FILL_AREA ( #250 ) ;
#45 = CARTESIAN_POINT ( 'NONE',  ( 0.0000000000000000000, 102.0000000000000000, -22.50000000000000000 ) ) ;
#46 = EDGE_CURVE ( 'NONE', #280, #345, #225, .T. ) ;
#47 = ADVANCED_BREP_SHAPE_REPRESENTATION ( '6015360', ( #258, #310 ), #123 ) ;
#48 = ORIENTED_EDGE ( 'NONE', *, *, #179, .T. ) ;
#49 = DIRECTION ( 'NONE',  ( 0.0000000000000000000, -1.000000000000000000, 0.0000000000000000000 ) ) ;
#50 = DIRECTION ( 'NONE',  ( 1.000000000000000000, 0.0000000000000000000, 0.0000000000000000000 ) ) ;
#51 = CARTESIAN_POINT ( 'NONE',  ( 0.0000000000000000000, 102.0000000000000000, -22.50000000000000000 ) ) ;
#52 = FACE_OUTER_BOUND ( 'NONE', #368, .T. ) ;
#53 = ORIENTED_EDGE ( 'NONE', *, *, #46, .T. ) ;
#54 = CYLINDRICAL_SURFACE ( 'NONE', #72, 3.000000000000000000 ) ;
#55 = ORIENTED_EDGE ( 'NONE', *, *, #316, .T. ) ;
#56 = LINE ( 'NONE', #299, #206 ) ;
#57 = EDGE_CURVE ( 'NONE', #375, #280, #377, .T. ) ;
#58 = CARTESIAN_POINT ( 'NONE',  ( 3.000000000000000000, 0.0000000000000000000, -22.50000000000000000 ) ) ;
#59 = DIRECTION ( 'NONE',  ( -0.0000000000000000000, 1.000000000000000000, 0.0000000000000000000 ) ) ;
#60 = ADVANCED_FACE ( 'NONE', ( #148 ), #336, .T. ) ;
#61 = FACE_OUTER_BOUND ( 'NONE', #346, .T. ) ;
#62 = VECTOR ( 'NONE', #30, 1000.000000000000000 ) ;
#63 = DIRECTION ( 'NONE',  ( -0.0000000000000000000, -0.0000000000000000000, -1.000000000000000000 ) ) ;
#64 = ORIENTED_EDGE ( 'NONE', *, *, #339, .T. ) ;
#65 =( GEOMETRIC_REPRESENTATION_CONTEXT ( 3 ) GLOBAL_UNCERTAINTY_ASSIGNED_CONTEXT ( ( #96 ) ) GLOBAL_UNIT_ASSIGNED_CONTEXT ( ( #325, #147, #351 ) ) REPRESENTATION_CONTEXT ( 'NONE', 'WORKASPACE' ) );
#66 = VECTOR ( 'NONE', #390, 1000.000000000000000 ) ;
#67 = LINE ( 'NONE', #200, #134 ) ;
#68 = ORIENTED_EDGE ( 'NONE', *, *, #139, .F. ) ;
#69 = AXIS2_PLACEMENT_3D ( 'NONE', #146, #175, #389 ) ;
#70 = DIRECTION ( 'NONE',  ( 1.000000000000000000, 0.0000000000000000000, -0.0000000000000000000 ) ) ;
#71 = LINE ( 'NONE', #232, #381 ) ;
#72 = AXIS2_PLACEMENT_3D ( 'NONE', #264, #248, #276 ) ;
#73 = ORIENTED_EDGE ( 'NONE', *, *, #316, .F. ) ;
#74 = FACE_OUTER_BOUND ( 'NONE', #320, .T. ) ;
#75 = DIRECTION ( 'NONE',  ( 1.000000000000000000, 0.0000000000000000000, 0.0000000000000000000 ) ) ;
#76 = LINE ( 'NONE', #207, #385 ) ;
#77 = CIRCLE ( 'NONE', #376, 6.000000000000000000 ) ;
#78 = SURFACE_SIDE_STYLE ('',( #44 ) ) ;
#79 = EDGE_CURVE ( 'NONE', #260, #321, #216, .T. ) ;
#80 = EDGE_CURVE ( 'NONE', #126, #392, #364, .T. ) ;
#81 = DIRECTION ( 'NONE',  ( 1.000000000000000000, 0.0000000000000000000, 0.0000000000000000000 ) ) ;
#82 = FACE_OUTER_BOUND ( 'NONE', #205, .T. ) ;
#83 = CARTESIAN_POINT ( 'NONE',  ( 6.000000000000000000, 108.0000000000000000, 22.50000000000000000 ) ) ;
#84 = ORIENTED_EDGE ( 'NONE', *, *, #32, .T. ) ;
#85 = DIRECTION ( 'NONE',  ( -1.000000000000000000, 0.0000000000000000000, 0.0000000000000000000 ) ) ;
#86 = FILL_AREA_STYLE ('',( #301 ) ) ;
#87 = DIRECTION ( 'NONE',  ( -1.000000000000000000, 0.0000000000000000000, 0.0000000000000000000 ) ) ;
#88 = AXIS2_PLACEMENT_3D ( 'NONE', #3, #244, #70 ) ;
#89 = CARTESIAN_POINT ( 'NONE',  ( 0.0000000000000000000, 102.0000000000000000, -22.50000000000000000 ) ) ;
#90 = CARTESIAN_POINT ( 'NONE',  ( 158.0000000000000000, 105.0000000000000000, 22.50000000000000000 ) ) ;
#91 = CARTESIAN_POINT ( 'NONE',  ( 3.000000000000000000, 102.0000000000000000, -22.50000000000000000 ) ) ;
#92 = ORIENTED_EDGE ( 'NONE', *, *, #359, .T. ) ;
#93 = EDGE_LOOP ( 'NONE', ( #64, #229, #256, #8 ) ) ;
#94 = PRODUCT_CONTEXT ( 'NONE', #35, 'mechanical' ) ;
#95 = EDGE_CURVE ( 'NONE', #259, #260, #125, .T. ) ;
#96 = UNCERTAINTY_MEASURE_WITH_UNIT (LENGTH_MEASURE( 1.000000000000000100E-005 ), #325, 'distance_accuracy_value', 'NONE');
#97 = PLANE ( 'NONE',  #287 ) ;
#98 = VECTOR ( 'NONE', #129, 1000.000000000000000 ) ;
#99 = EDGE_CURVE ( 'NONE', #217, #152, #204, .T. ) ;
#100 = DIRECTION ( 'NONE',  ( 1.000000000000000000, 0.0000000000000000000, 0.0000000000000000000 ) ) ;
#101 = CARTESIAN_POINT ( 'NONE',  ( 0.0000000000000000000, 0.0000000000000000000, 0.0000000000000000000 ) ) ;
#102 =( LENGTH_UNIT ( ) NAMED_UNIT ( * ) SI_UNIT ( .MILLI., .METRE. ) );
#103 = AXIS2_PLACEMENT_3D ( 'NONE', #348, #49, #261 ) ;
#104 = CARTESIAN_POINT ( 'NONE',  ( 0.0000000000000000000, 0.0000000000000000000, 22.50000000000000000 ) ) ;
#105 = PRODUCT_DEFINITION_FORMATION_WITH_SPECIFIED_SOURCE ( 'ANY', '', #144, .NOT_KNOWN. ) ;
#106 = PLANE ( 'NONE',  #333 ) ;
#107 = EDGE_LOOP ( 'NONE', ( #323, #55, #344, #68 ) ) ;
#108 = ORIENTED_EDGE ( 'NONE', *, *, #32, .F. ) ;
#109 = EDGE_LOOP ( 'NONE', ( #41, #288, #11, #282 ) ) ;
#110 = PLANE ( 'NONE',  #69 ) ;
#111 = EDGE_CURVE ( 'NONE', #259, #135, #76, .T. ) ;
#112 = CARTESIAN_POINT ( 'NONE',  ( 6.000000000000000000, 108.0000000000000000, -22.50000000000000000 ) ) ;
#113 = SURFACE_STYLE_USAGE ( .BOTH. , #290 ) ;
#114 = PLANE ( 'NONE',  #171 ) ;
#115 = EDGE_CURVE ( 'NONE', #280, #135, #223, .T. ) ;
#116 = DIRECTION ( 'NONE',  ( -1.000000000000000000, 0.0000000000000000000, 0.0000000000000000000 ) ) ;
#117 = CARTESIAN_POINT ( 'NONE',  ( 0.0000000000000000000, 105.0000000000000000, 22.50000000000000000 ) ) ;
#118 = ADVANCED_FACE ( 'NONE', ( #372 ), #54, .F. ) ;
#119 = ORIENTED_EDGE ( 'NONE', *, *, #111, .F. ) ;
#120 = APPLICATION_PROTOCOL_DEFINITION ( 'draft international standard', 'automotive_design', 1998, #305 ) ;
#121 = AXIS2_PLACEMENT_3D ( 'NONE', #51, #263, #87 ) ;
#122 = CARTESIAN_POINT ( 'NONE',  ( 158.0000000000000000, 105.0000000000000000, 22.50000000000000000 ) ) ;
#123 =( GEOMETRIC_REPRESENTATION_CONTEXT ( 3 ) GLOBAL_UNCERTAINTY_ASSIGNED_CONTEXT ( ( #306 ) ) GLOBAL_UNIT_ASSIGNED_CONTEXT ( ( #338, #167, #373 ) ) REPRESENTATION_CONTEXT ( 'NONE', 'WORKASPACE' ) );
#124 = DIRECTION ( 'NONE',  ( 0.0000000000000000000, 0.0000000000000000000, 1.000000000000000000 ) ) ;
#125 = LINE ( 'NONE', #352, #40 ) ;
#126 = VERTEX_POINT ( 'NONE', #337 ) ;
#127 = FACE_OUTER_BOUND ( 'NONE', #93, .T. ) ;
#128 = CARTESIAN_POINT ( 'NONE',  ( 3.000000000000000000, 0.0000000000000000000, 22.50000000000000000 ) ) ;
#129 = DIRECTION ( 'NONE',  ( -1.000000000000000000, 0.0000000000000000000, 0.0000000000000000000 ) ) ;
#130 = PRODUCT_RELATED_PRODUCT_CATEGORY ( 'part', '', ( #144 ) ) ;
#131 =( NAMED_UNIT ( * ) SI_UNIT ( $, .STERADIAN. ) SOLID_ANGLE_UNIT ( ) );
#132 = EDGE_CURVE ( 'NONE', #37, #260, #286, .T. ) ;
#133 = ORIENTED_EDGE ( 'NONE', *, *, #253, .F. ) ;
#134 = VECTOR ( 'NONE', #322, 1000.000000000000000 ) ;
#135 = VERTEX_POINT ( 'NONE', #122 ) ;
#136 = VECTOR ( 'NONE', #16, 1000.000000000000000 ) ;
#137 = ORIENTED_EDGE ( 'NONE', *, *, #220, .T. ) ;
#138 = VECTOR ( 'NONE', #209, 1000.000000000000000 ) ;
#139 = EDGE_CURVE ( 'NONE', #197, #217, #177, .T. ) ;
#140 = VECTOR ( 'NONE', #192, 1000.000000000000000 ) ;
#141 = VECTOR ( 'NONE', #75, 1000.000000000000000 ) ;
#142 = DIRECTION ( 'NONE',  ( 1.000000000000000000, 0.0000000000000000000, -0.0000000000000000000 ) ) ;
#143 = COLOUR_RGB ( '',0.7529411764705882200, 0.7529411764705882200, 0.7529411764705882200 ) ;
#144 = PRODUCT ( '6015360', '6015360', '', ( #94 ) ) ;
#145 = EDGE_LOOP ( 'NONE', ( #133, #196, #137, #84 ) ) ;
#146 = CARTESIAN_POINT ( 'NONE',  ( 6.000000000000000000, 102.0000000000000000, -22.50000000000000000 ) ) ;
#147 =( NAMED_UNIT ( * ) PLANE_ANGLE_UNIT ( ) SI_UNIT ( $, .RADIAN. ) );
#148 = FACE_OUTER_BOUND ( 'NONE', #365, .T. ) ;
#149 = FACE_OUTER_BOUND ( 'NONE', #109, .T. ) ;
#150 = AXIS2_PLACEMENT_3D ( 'NONE', #155, #395, #277 ) ;
#151 = LINE ( 'NONE', #180, #138 ) ;
#152 = VERTEX_POINT ( 'NONE', #361 ) ;
#153 = DIRECTION ( 'NONE',  ( 1.000000000000000000, 0.0000000000000000000, 0.0000000000000000000 ) ) ;
#154 = EDGE_LOOP ( 'NONE', ( #194, #347, #331, #212 ) ) ;
#155 = CARTESIAN_POINT ( 'NONE',  ( 0.0000000000000000000, 108.0000000000000000, 22.50000000000000000 ) ) ;
#156 = DIRECTION ( 'NONE',  ( -0.0000000000000000000, -0.0000000000000000000, -1.000000000000000000 ) ) ;
#157 = ADVANCED_FACE ( 'NONE', ( #335 ), #188, .T. ) ;
#158 = VECTOR ( 'NONE', #273, 1000.000000000000000 ) ;
#159 = DIRECTION ( 'NONE',  ( -0.0000000000000000000, -0.0000000000000000000, -1.000000000000000000 ) ) ;
#160 = EDGE_CURVE ( 'NONE', #36, #280, #252, .T. ) ;
#161 = CARTESIAN_POINT ( 'NONE',  ( 158.0000000000000000, 108.0000000000000000, 22.50000000000000000 ) ) ;
#162 = PLANE ( 'NONE',  #293 ) ;
#163 = ADVANCED_FACE ( 'NONE', ( #13 ), #383, .T. ) ;
#164 = EDGE_CURVE ( 'NONE', #217, #126, #246, .T. ) ;
#165 = CARTESIAN_POINT ( 'NONE',  ( 3.000000000000000000, 0.0000000000000000000, 22.50000000000000000 ) ) ;
#166 = CIRCLE ( 'NONE', #315, 6.000000000000000000 ) ;
#167 =( NAMED_UNIT ( * ) PLANE_ANGLE_UNIT ( ) SI_UNIT ( $, .RADIAN. ) );
#168 = DIRECTION ( 'NONE',  ( 0.0000000000000000000, 0.0000000000000000000, 1.000000000000000000 ) ) ;
#169 = ORIENTED_EDGE ( 'NONE', *, *, #26, .F. ) ;
#170 = ORIENTED_EDGE ( 'NONE', *, *, #57, .T. ) ;
#171 = AXIS2_PLACEMENT_3D ( 'NONE', #117, #255, #285 ) ;
#172 = DIRECTION ( 'NONE',  ( -1.000000000000000000, 0.0000000000000000000, 0.0000000000000000000 ) ) ;
#173 = ORIENTED_EDGE ( 'NONE', *, *, #164, .T. ) ;
#174 = ORIENTED_EDGE ( 'NONE', *, *, #160, .F. ) ;
#175 = DIRECTION ( 'NONE',  ( 0.0000000000000000000, 0.0000000000000000000, 1.000000000000000000 ) ) ;
#176 = CARTESIAN_POINT ( 'NONE',  ( 6.000000000000000000, 108.0000000000000000, 22.50000000000000000 ) ) ;
#177 = LINE ( 'NONE', #165, #98 ) ;
#178 = DIRECTION ( 'NONE',  ( 0.0000000000000000000, -1.000000000000000000, 0.0000000000000000000 ) ) ;
#179 = EDGE_CURVE ( 'NONE', #36, #243, #317, .T. ) ;
#180 = CARTESIAN_POINT ( 'NONE',  ( 0.0000000000000000000, 0.0000000000000000000, -22.50000000000000000 ) ) ;
#181 = ADVANCED_FACE ( 'NONE', ( #303 ), #97, .T. ) ;
#182 = FILL_AREA_STYLE_COLOUR ( '', #353 ) ;
#183 = PLANE ( 'NONE',  #380 ) ;
#184 = CARTESIAN_POINT ( 'NONE',  ( 6.000000000000000000, 102.0000000000000000, 22.50000000000000000 ) ) ;
#185 = ORIENTED_EDGE ( 'NONE', *, *, #57, .F. ) ;
#186 = ORIENTED_EDGE ( 'NONE', *, *, #79, .F. ) ;
#187 = EDGE_LOOP ( 'NONE', ( #382, #169, #354, #53 ) ) ;
#188 = PLANE ( 'NONE',  #88 ) ;
#189 = STYLED_ITEM ( 'NONE', ( #357 ), #47 ) ;
#190 = DIRECTION ( 'NONE',  ( -0.0000000000000000000, 0.0000000000000000000, -1.000000000000000000 ) ) ;
#191 = ADVANCED_FACE ( 'NONE', ( #82 ), #106, .T. ) ;
#192 = DIRECTION ( 'NONE',  ( 1.000000000000000000, 0.0000000000000000000, 0.0000000000000000000 ) ) ;
#193 = ORIENTED_EDGE ( 'NONE', *, *, #237, .F. ) ;
#194 = ORIENTED_EDGE ( 'NONE', *, *, #9, .F. ) ;
#195 = ORIENTED_EDGE ( 'NONE', *, *, #46, .F. ) ;
#196 = ORIENTED_EDGE ( 'NONE', *, *, #80, .F. ) ;
#197 = VERTEX_POINT ( 'NONE', #343 ) ;
#198 = EDGE_CURVE ( 'NONE', #197, #241, #313, .T. ) ;
#199 = CARTESIAN_POINT ( 'NONE',  ( 0.0000000000000000000, 0.0000000000000000000, 22.50000000000000000 ) ) ;
#200 = CARTESIAN_POINT ( 'NONE',  ( 6.000000000000000000, 105.0000000000000000, -22.50000000000000000 ) ) ;
#201 = CARTESIAN_POINT ( 'NONE',  ( 158.0000000000000000, 108.0000000000000000, -22.50000000000000000 ) ) ;
#202 = CARTESIAN_POINT ( 'NONE',  ( 158.0000000000000000, 108.0000000000000000, -22.50000000000000000 ) ) ;
#203 = PRESENTATION_LAYER_ASSIGNMENT (  '', '', ( #189 ) ) ;
#204 = LINE ( 'NONE', #393, #291 ) ;
#205 = EDGE_LOOP ( 'NONE', ( #185, #269, #73, #342 ) ) ;
#206 = VECTOR ( 'NONE', #329, 1000.000000000000000 ) ;
#207 = CARTESIAN_POINT ( 'NONE',  ( 158.0000000000000000, 108.0000000000000000, 22.50000000000000000 ) ) ;
#208 = ORIENTED_EDGE ( 'NONE', *, *, #80, .T. ) ;
#209 = DIRECTION ( 'NONE',  ( 0.0000000000000000000, 1.000000000000000000, 0.0000000000000000000 ) ) ;
#210 = DIRECTION ( 'NONE',  ( -0.0000000000000000000, -0.0000000000000000000, -1.000000000000000000 ) ) ;
#211 = DIRECTION ( 'NONE',  ( -0.0000000000000000000, -0.0000000000000000000, -1.000000000000000000 ) ) ;
#212 = ORIENTED_EDGE ( 'NONE', *, *, #79, .T. ) ;
#213 = VECTOR ( 'NONE', #349, 1000.000000000000000 ) ;
#214 = CARTESIAN_POINT ( 'NONE',  ( 0.0000000000000000000, 0.0000000000000000000, 22.50000000000000000 ) ) ;
#215 = EDGE_LOOP ( 'NONE', ( #284, #170, #268, #119 ) ) ;
#216 = LINE ( 'NONE', #201, #136 ) ;
#217 = VERTEX_POINT ( 'NONE', #199 ) ;
#218 = DIRECTION ( 'NONE',  ( -0.0000000000000000000, -0.0000000000000000000, -1.000000000000000000 ) ) ;
#219 = ORIENTED_EDGE ( 'NONE', *, *, #139, .T. ) ;
#220 = EDGE_CURVE ( 'NONE', #126, #375, #166, .T. ) ;
#221 = DIRECTION ( 'NONE',  ( 0.0000000000000000000, 0.0000000000000000000, 1.000000000000000000 ) ) ;
#222 = VECTOR ( 'NONE', #156, 1000.000000000000000 ) ;
#223 = LINE ( 'NONE', #34, #141 ) ;
#224 = PRESENTATION_STYLE_ASSIGNMENT (( #113 ) ) ;
#225 = LINE ( 'NONE', #324, #66 ) ;
#226 = VECTOR ( 'NONE', #257, 1000.000000000000000 ) ;
#227 = VECTOR ( 'NONE', #116, 1000.000000000000000 ) ;
#228 = MECHANICAL_DESIGN_GEOMETRIC_PRESENTATION_REPRESENTATION (  '', ( #189 ), #247 ) ;
#229 = ORIENTED_EDGE ( 'NONE', *, *, #275, .T. ) ;
#230 = LINE ( 'NONE', #384, #304 ) ;
#231 = CARTESIAN_POINT ( 'NONE',  ( 6.000000000000000000, 105.0000000000000000, 22.50000000000000000 ) ) ;
#232 = CARTESIAN_POINT ( 'NONE',  ( 0.0000000000000000000, 108.0000000000000000, 22.50000000000000000 ) ) ;
#233 = DIRECTION ( 'NONE',  ( -0.0000000000000000000, -0.0000000000000000000, -1.000000000000000000 ) ) ;
#234 = PLANE ( 'NONE',  #121 ) ;
#235 = EDGE_CURVE ( 'NONE', #243, #345, #397, .T. ) ;
#236 = DIRECTION ( 'NONE',  ( -0.0000000000000000000, -0.0000000000000000000, -1.000000000000000000 ) ) ;
#237 = EDGE_CURVE ( 'NONE', #197, #36, #230, .T. ) ;
#238 = CARTESIAN_POINT ( 'NONE',  ( 3.000000000000000000, 0.0000000000000000000, -22.50000000000000000 ) ) ;
#239 = VECTOR ( 'NONE', #4, 1000.000000000000000 ) ;
#240 = PRODUCT_DEFINITION_SHAPE ( 'NONE', 'NONE',  #327 ) ;
#241 = VERTEX_POINT ( 'NONE', #238 ) ;
#242 = CARTESIAN_POINT ( 'NONE',  ( 6.000000000000000000, 102.0000000000000000, 22.50000000000000000 ) ) ;
#243 = VERTEX_POINT ( 'NONE', #91 ) ;
#244 = DIRECTION ( 'NONE',  ( 0.0000000000000000000, 0.0000000000000000000, 1.000000000000000000 ) ) ;
#245 = CARTESIAN_POINT ( 'NONE',  ( 3.000000000000000000, 102.0000000000000000, 22.50000000000000000 ) ) ;
#246 = LINE ( 'NONE', #214, #62 ) ;
#247 =( GEOMETRIC_REPRESENTATION_CONTEXT ( 3 ) GLOBAL_UNCERTAINTY_ASSIGNED_CONTEXT ( ( #332 ) ) GLOBAL_UNIT_ASSIGNED_CONTEXT ( ( #102, #314, #131 ) ) REPRESENTATION_CONTEXT ( 'NONE', 'WORKASPACE' ) );
#248 = DIRECTION ( 'NONE',  ( -0.0000000000000000000, -0.0000000000000000000, -1.000000000000000000 ) ) ;
#249 = DIRECTION ( 'NONE',  ( -0.0000000000000000000, 0.0000000000000000000, -1.000000000000000000 ) ) ;
#250 = FILL_AREA_STYLE ('',( #182 ) ) ;
#251 = ORIENTED_EDGE ( 'NONE', *, *, #95, .T. ) ;
#252 = CIRCLE ( 'NONE', #5, 3.000000000000000900 ) ;
#253 = EDGE_CURVE ( 'NONE', #392, #37, #77, .T. ) ;
#254 = DIRECTION ( 'NONE',  ( -0.0000000000000000000, -0.0000000000000000000, -1.000000000000000000 ) ) ;
#255 = DIRECTION ( 'NONE',  ( 0.0000000000000000000, 1.000000000000000000, 0.0000000000000000000 ) ) ;
#256 = ORIENTED_EDGE ( 'NONE', *, *, #359, .F. ) ;
#257 = DIRECTION ( 'NONE',  ( 1.000000000000000000, 0.0000000000000000000, 0.0000000000000000000 ) ) ;
#258 = MANIFOLD_SOLID_BREP ( 'Basis-Blech1', #28 ) ;
#259 = VERTEX_POINT ( 'NONE', #262 ) ;
#260 = VERTEX_POINT ( 'NONE', #202 ) ;
#261 = DIRECTION ( 'NONE',  ( 0.0000000000000000000, -0.0000000000000000000, -1.000000000000000000 ) ) ;
#262 = CARTESIAN_POINT ( 'NONE',  ( 158.0000000000000000, 108.0000000000000000, 22.50000000000000000 ) ) ;
#263 = DIRECTION ( 'NONE',  ( -0.0000000000000000000, 0.0000000000000000000, -1.000000000000000000 ) ) ;
#264 = CARTESIAN_POINT ( 'NONE',  ( 6.000000000000000000, 102.0000000000000000, 22.50000000000000000 ) ) ;
#265 = DIRECTION ( 'NONE',  ( -0.0000000000000000000, 1.000000000000000000, 0.0000000000000000000 ) ) ;
#266 = ADVANCED_FACE ( 'NONE', ( #149 ), #234, .T. ) ;
#267 = ORIENTED_EDGE ( 'NONE', *, *, #388, .F. ) ;
#268 = ORIENTED_EDGE ( 'NONE', *, *, #115, .T. ) ;
#269 = ORIENTED_EDGE ( 'NONE', *, *, #220, .F. ) ;
#270 = ORIENTED_EDGE ( 'NONE', *, *, #319, .T. ) ;
#271 = DIRECTION ( 'NONE',  ( 1.000000000000000000, 0.0000000000000000000, 0.0000000000000000000 ) ) ;
#272 = AXIS2_PLACEMENT_3D ( 'NONE', #184, #159, #25 ) ;
#273 = DIRECTION ( 'NONE',  ( -0.0000000000000000000, -0.0000000000000000000, -1.000000000000000000 ) ) ;
#274 = ADVANCED_FACE ( 'NONE', ( #378 ), #114, .F. ) ;
#275 = EDGE_CURVE ( 'NONE', #392, #243, #292, .T. ) ;
#276 = DIRECTION ( 'NONE',  ( -1.000000000000000000, 0.0000000000000000000, 0.0000000000000000000 ) ) ;
#277 = DIRECTION ( 'NONE',  ( 0.0000000000000000000, -0.0000000000000000000, 1.000000000000000000 ) ) ;
#278 = SURFACE_STYLE_USAGE ( .BOTH. , #78 ) ;
#279 = CARTESIAN_POINT ( 'NONE',  ( 6.000000000000000000, 105.0000000000000000, -22.50000000000000000 ) ) ;
#280 = VERTEX_POINT ( 'NONE', #231 ) ;
#281 = VECTOR ( 'NONE', #218, 1000.000000000000000 ) ;
#282 = ORIENTED_EDGE ( 'NONE', *, *, #235, .F. ) ;
#283 = FACE_OUTER_BOUND ( 'NONE', #341, .T. ) ;
#284 = ORIENTED_EDGE ( 'NONE', *, *, #319, .F. ) ;
#285 = DIRECTION ( 'NONE',  ( 0.0000000000000000000, -0.0000000000000000000, 1.000000000000000000 ) ) ;
#286 = LINE ( 'NONE', #312, #18 ) ;
#287 = AXIS2_PLACEMENT_3D ( 'NONE', #309, #124, #358 ) ;
#288 = ORIENTED_EDGE ( 'NONE', *, *, #253, .T. ) ;
#289 = CARTESIAN_POINT ( 'NONE',  ( 158.0000000000000000, 105.0000000000000000, -22.50000000000000000 ) ) ;
#290 = SURFACE_SIDE_STYLE ('',( #386 ) ) ;
#291 = VECTOR ( 'NONE', #236, 1000.000000000000000 ) ;
#292 = LINE ( 'NONE', #45, #226 ) ;
#293 = AXIS2_PLACEMENT_3D ( 'NONE', #128, #370, #221 ) ;
#294 = ORIENTED_EDGE ( 'NONE', *, *, #198, .T. ) ;
#295 = LINE ( 'NONE', #58, #367 ) ;
#296 = ORIENTED_EDGE ( 'NONE', *, *, #339, .F. ) ;
#297 = CARTESIAN_POINT ( 'NONE',  ( 3.000000000000000000, 102.0000000000000000, 22.50000000000000000 ) ) ;
#298 = EDGE_CURVE ( 'NONE', #345, #37, #67, .T. ) ;
#299 = CARTESIAN_POINT ( 'NONE',  ( 3.000000000000000000, 0.0000000000000000000, -22.50000000000000000 ) ) ;
#300 = LINE ( 'NONE', #369, #140 ) ;
#301 = FILL_AREA_STYLE_COLOUR ( '', #143 ) ;
#302 = ADVANCED_FACE ( 'NONE', ( #362 ), #110, .F. ) ;
#303 = FACE_OUTER_BOUND ( 'NONE', #107, .T. ) ;
#304 = VECTOR ( 'NONE', #59, 1000.000000000000000 ) ;
#305 = APPLICATION_CONTEXT ( 'automotive_design' ) ;
#306 = UNCERTAINTY_MEASURE_WITH_UNIT (LENGTH_MEASURE( 1.000000000000000100E-005 ), #338, 'distance_accuracy_value', 'NONE');
#307 = VECTOR ( 'NONE', #211, 1000.000000000000000 ) ;
#308 = LINE ( 'NONE', #297, #227 ) ;
#309 = CARTESIAN_POINT ( 'NONE',  ( 6.000000000000000000, 102.0000000000000000, 22.50000000000000000 ) ) ;
#310 = AXIS2_PLACEMENT_3D ( 'NONE', #101, #168, #374 ) ;
#311 = ADVANCED_FACE ( 'NONE', ( #52 ), #14, .T. ) ;
#312 = CARTESIAN_POINT ( 'NONE',  ( 0.0000000000000000000, 108.0000000000000000, -22.50000000000000000 ) ) ;
#313 = LINE ( 'NONE', #387, #158 ) ;
#314 =( NAMED_UNIT ( * ) PLANE_ANGLE_UNIT ( ) SI_UNIT ( $, .RADIAN. ) );
#315 = AXIS2_PLACEMENT_3D ( 'NONE', #43, #254, #81 ) ;
#316 = EDGE_CURVE ( 'NONE', #36, #126, #308, .T. ) ;
#317 = LINE ( 'NONE', #245, #239 ) ;
#318 = DIRECTION ( 'NONE',  ( 0.0000000000000000000, 0.0000000000000000000, 1.000000000000000000 ) ) ;
#319 = EDGE_CURVE ( 'NONE', #375, #259, #71, .T. ) ;
#320 = EDGE_LOOP ( 'NONE', ( #92, #42, #193, #294 ) ) ;
#321 = VERTEX_POINT ( 'NONE', #289 ) ;
#322 = DIRECTION ( 'NONE',  ( 0.0000000000000000000, 1.000000000000000000, 0.0000000000000000000 ) ) ;
#323 = ORIENTED_EDGE ( 'NONE', *, *, #237, .T. ) ;
#324 = CARTESIAN_POINT ( 'NONE',  ( 6.000000000000000000, 105.0000000000000000, 22.50000000000000000 ) ) ;
#325 =( LENGTH_UNIT ( ) NAMED_UNIT ( * ) SI_UNIT ( .MILLI., .METRE. ) );
#326 = SHAPE_DEFINITION_REPRESENTATION ( #240, #47 ) ;
#327 = PRODUCT_DEFINITION ( 'UNKNOWN', '', #105, #1 ) ;
#328 = PLANE ( 'NONE',  #150 ) ;
#329 = DIRECTION ( 'NONE',  ( -1.000000000000000000, 0.0000000000000000000, 0.0000000000000000000 ) ) ;
#330 = CARTESIAN_POINT ( 'NONE',  ( 6.000000000000000000, 108.0000000000000000, 22.50000000000000000 ) ) ;
#331 = ORIENTED_EDGE ( 'NONE', *, *, #132, .T. ) ;
#332 = UNCERTAINTY_MEASURE_WITH_UNIT (LENGTH_MEASURE( 1.000000000000000100E-005 ), #102, 'distance_accuracy_value', 'NONE');
#333 = AXIS2_PLACEMENT_3D ( 'NONE', #83, #318, #142 ) ;
#334 = AXIS2_PLACEMENT_3D ( 'NONE', #104, #172, #12 ) ;
#335 = FACE_OUTER_BOUND ( 'NONE', #215, .T. ) ;
#336 = PLANE ( 'NONE',  #19 ) ;
#337 = CARTESIAN_POINT ( 'NONE',  ( 0.0000000000000000000, 102.0000000000000000, 22.50000000000000000 ) ) ;
#338 =( LENGTH_UNIT ( ) NAMED_UNIT ( * ) SI_UNIT ( .MILLI., .METRE. ) );
#339 = EDGE_CURVE ( 'NONE', #152, #392, #151, .T. ) ;
#340 = ORIENTED_EDGE ( 'NONE', *, *, #99, .T. ) ;
#341 = EDGE_LOOP ( 'NONE', ( #379, #108, #270, #251 ) ) ;
#342 = ORIENTED_EDGE ( 'NONE', *, *, #160, .T. ) ;
#343 = CARTESIAN_POINT ( 'NONE',  ( 3.000000000000000000, 0.0000000000000000000, 22.50000000000000000 ) ) ;
#344 = ORIENTED_EDGE ( 'NONE', *, *, #164, .F. ) ;
#345 = VERTEX_POINT ( 'NONE', #21 ) ;
#346 = EDGE_LOOP ( 'NONE', ( #296, #24, #173, #208 ) ) ;
#347 = ORIENTED_EDGE ( 'NONE', *, *, #298, .T. ) ;
#348 = CARTESIAN_POINT ( 'NONE',  ( 3.000000000000000000, 0.0000000000000000000, 22.50000000000000000 ) ) ;
#349 = DIRECTION ( 'NONE',  ( 0.0000000000000000000, -1.000000000000000000, 0.0000000000000000000 ) ) ;
#350 = AXIS2_PLACEMENT_3D ( 'NONE', #394, #210, #22 ) ;
#351 =( NAMED_UNIT ( * ) SI_UNIT ( $, .STERADIAN. ) SOLID_ANGLE_UNIT ( ) );
#352 = CARTESIAN_POINT ( 'NONE',  ( 158.0000000000000000, 108.0000000000000000, 22.50000000000000000 ) ) ;
#353 = COLOUR_RGB ( '',0.7529411764705882200, 0.7529411764705882200, 0.7529411764705882200 ) ;
#354 = ORIENTED_EDGE ( 'NONE', *, *, #115, .F. ) ;
#355 = CARTESIAN_POINT ( 'NONE',  ( 6.000000000000000000, 108.0000000000000000, 22.50000000000000000 ) ) ;
#356 = CARTESIAN_POINT ( 'NONE',  ( 3.000000000000000000, 102.0000000000000000, 22.50000000000000000 ) ) ;
#357 = PRESENTATION_STYLE_ASSIGNMENT (( #278 ) ) ;
#358 = DIRECTION ( 'NONE',  ( 1.000000000000000000, 0.0000000000000000000, -0.0000000000000000000 ) ) ;
#359 = EDGE_CURVE ( 'NONE', #241, #243, #295, .T. ) ;
#360 = ORIENTED_EDGE ( 'NONE', *, *, #26, .T. ) ;
#361 = CARTESIAN_POINT ( 'NONE',  ( 0.0000000000000000000, 0.0000000000000000000, -22.50000000000000000 ) ) ;
#362 = FACE_OUTER_BOUND ( 'NONE', #154, .T. ) ;
#363 = EDGE_LOOP ( 'NONE', ( #27, #195, #174, #48 ) ) ;
#364 = LINE ( 'NONE', #31, #281 ) ;
#365 = EDGE_LOOP ( 'NONE', ( #186, #29, #10, #360 ) ) ;
#366 = DIRECTION ( 'NONE',  ( 1.000000000000000000, 0.0000000000000000000, -0.0000000000000000000 ) ) ;
#367 = VECTOR ( 'NONE', #265, 1000.000000000000000 ) ;
#368 = EDGE_LOOP ( 'NONE', ( #267, #398, #219, #340 ) ) ;
#369 = CARTESIAN_POINT ( 'NONE',  ( 0.0000000000000000000, 105.0000000000000000, -22.50000000000000000 ) ) ;
#370 = DIRECTION ( 'NONE',  ( -1.000000000000000000, -0.0000000000000000000, 0.0000000000000000000 ) ) ;
#371 = LINE ( 'NONE', #90, #222 ) ;
#372 = FACE_OUTER_BOUND ( 'NONE', #363, .T. ) ;
#373 =( NAMED_UNIT ( * ) SI_UNIT ( $, .STERADIAN. ) SOLID_ANGLE_UNIT ( ) );
#374 = DIRECTION ( 'NONE',  ( 1.000000000000000000, 0.0000000000000000000, 0.0000000000000000000 ) ) ;
#375 = VERTEX_POINT ( 'NONE', #355 ) ;
#376 = AXIS2_PLACEMENT_3D ( 'NONE', #15, #233, #50 ) ;
#377 = LINE ( 'NONE', #176, #213 ) ;
#378 = FACE_OUTER_BOUND ( 'NONE', #187, .T. ) ;
#379 = ORIENTED_EDGE ( 'NONE', *, *, #132, .F. ) ;
#380 = AXIS2_PLACEMENT_3D ( 'NONE', #279, #249, #85 ) ;
#381 = VECTOR ( 'NONE', #153, 1000.000000000000000 ) ;
#382 = ORIENTED_EDGE ( 'NONE', *, *, #9, .T. ) ;
#383 = CYLINDRICAL_SURFACE ( 'NONE', #272, 6.000000000000000000 ) ;
#384 = CARTESIAN_POINT ( 'NONE',  ( 3.000000000000000000, 0.0000000000000000000, 22.50000000000000000 ) ) ;
#385 = VECTOR ( 'NONE', #178, 1000.000000000000000 ) ;
#386 = SURFACE_STYLE_FILL_AREA ( #86 ) ;
#387 = CARTESIAN_POINT ( 'NONE',  ( 3.000000000000000000, 0.0000000000000000000, 22.50000000000000000 ) ) ;
#388 = EDGE_CURVE ( 'NONE', #241, #152, #56, .T. ) ;
#389 = DIRECTION ( 'NONE',  ( 1.000000000000000000, 0.0000000000000000000, -0.0000000000000000000 ) ) ;
#390 = DIRECTION ( 'NONE',  ( -0.0000000000000000000, -0.0000000000000000000, -1.000000000000000000 ) ) ;
#391 = LINE ( 'NONE', #330, #307 ) ;
#392 = VERTEX_POINT ( 'NONE', #89 ) ;
#393 = CARTESIAN_POINT ( 'NONE',  ( 0.0000000000000000000, 0.0000000000000000000, 22.50000000000000000 ) ) ;
#394 = CARTESIAN_POINT ( 'NONE',  ( 6.000000000000000000, 102.0000000000000000, -22.50000000000000000 ) ) ;
#395 = DIRECTION ( 'NONE',  ( 0.0000000000000000000, 1.000000000000000000, 0.0000000000000000000 ) ) ;
#396 = ADVANCED_FACE ( 'NONE', ( #283 ), #328, .T. ) ;
#397 = CIRCLE ( 'NONE', #350, 3.000000000000000900 ) ;
#398 = ORIENTED_EDGE ( 'NONE', *, *, #198, .F. ) ;
ENDSEC;
END-ISO-10303-21;
